ISO-10303-21;
HEADER;
/* Generated by software containing ST-Developer
 * from STEP Tools, Inc. (www.steptools.com) 
 */

FILE_DESCRIPTION(
/* description */ (''),
/* implementation_level */ '2;1');

FILE_NAME(
/* name */ 'D:/Bilder/Volker/LaserSky/Laser_Teller.step',
/* time_stamp */ '2021-05-31T19:52:43+02:00',
/* author */ (''),
/* organization */ (''),
/* preprocessor_version */ 'ST-DEVELOPER v18.1',
/* originating_system */ 'Autodesk Translation Framework v10.9.0.1377',

/* authorisation */ '');

FILE_SCHEMA (('AUTOMOTIVE_DESIGN { 1 0 10303 214 3 1 1 }'));
ENDSEC;

DATA;
#10=MECHANICAL_DESIGN_GEOMETRIC_PRESENTATION_REPRESENTATION('',(#13),#662);
#11=SHAPE_REPRESENTATION_RELATIONSHIP('SRR','None',#669,#12);
#12=ADVANCED_BREP_SHAPE_REPRESENTATION('',(#14),#661);
#13=STYLED_ITEM('',(#678),#14);
#14=MANIFOLD_SOLID_BREP('K\X\F6rper1',#363);
#15=FACE_BOUND('',#62,.T.);
#16=FACE_BOUND('',#77,.T.);
#17=FACE_BOUND('',#82,.T.);
#18=PLANE('',#391);
#19=PLANE('',#393);
#20=PLANE('',#394);
#21=PLANE('',#395);
#22=PLANE('',#396);
#23=PLANE('',#397);
#24=PLANE('',#398);
#25=PLANE('',#399);
#26=PLANE('',#407);
#27=PLANE('',#415);
#28=PLANE('',#425);
#29=ELLIPSE('',#383,3.7476659402887,2.65);
#30=ELLIPSE('',#385,3.7476659402887,2.65);
#31=ELLIPSE('',#387,3.7476659402887,2.65);
#32=ELLIPSE('',#389,3.7476659402887,2.65);
#33=CYLINDRICAL_SURFACE('',#381,2.65);
#34=CYLINDRICAL_SURFACE('',#404,40.);
#35=CYLINDRICAL_SURFACE('',#411,10.);
#36=CYLINDRICAL_SURFACE('',#420,35.);
#37=FACE_OUTER_BOUND('',#59,.T.);
#38=FACE_OUTER_BOUND('',#60,.T.);
#39=FACE_OUTER_BOUND('',#61,.T.);
#40=FACE_OUTER_BOUND('',#63,.T.);
#41=FACE_OUTER_BOUND('',#64,.T.);
#42=FACE_OUTER_BOUND('',#65,.T.);
#43=FACE_OUTER_BOUND('',#66,.T.);
#44=FACE_OUTER_BOUND('',#67,.T.);
#45=FACE_OUTER_BOUND('',#68,.T.);
#46=FACE_OUTER_BOUND('',#69,.T.);
#47=FACE_OUTER_BOUND('',#70,.T.);
#48=FACE_OUTER_BOUND('',#71,.T.);
#49=FACE_OUTER_BOUND('',#72,.T.);
#50=FACE_OUTER_BOUND('',#73,.T.);
#51=FACE_OUTER_BOUND('',#74,.T.);
#52=FACE_OUTER_BOUND('',#75,.T.);
#53=FACE_OUTER_BOUND('',#76,.T.);
#54=FACE_OUTER_BOUND('',#78,.T.);
#55=FACE_OUTER_BOUND('',#79,.T.);
#56=FACE_OUTER_BOUND('',#80,.T.);
#57=FACE_OUTER_BOUND('',#81,.T.);
#58=FACE_OUTER_BOUND('',#83,.T.);
#59=EDGE_LOOP('',(#234,#235,#236,#237,#238));
#60=EDGE_LOOP('',(#239,#240,#241,#242,#243,#244,#245,#246,#247,#248,#249,
#250,#251,#252,#253,#254,#255));
#61=EDGE_LOOP('',(#256));
#62=EDGE_LOOP('',(#257));
#63=EDGE_LOOP('',(#258,#259,#260,#261));
#64=EDGE_LOOP('',(#262,#263,#264,#265));
#65=EDGE_LOOP('',(#266,#267,#268,#269));
#66=EDGE_LOOP('',(#270,#271,#272,#273));
#67=EDGE_LOOP('',(#274,#275));
#68=EDGE_LOOP('',(#276,#277,#278,#279));
#69=EDGE_LOOP('',(#280,#281,#282));
#70=EDGE_LOOP('',(#283,#284,#285,#286,#287));
#71=EDGE_LOOP('',(#288,#289,#290,#291,#292,#293));
#72=EDGE_LOOP('',(#294));
#73=EDGE_LOOP('',(#295,#296,#297,#298,#299));
#74=EDGE_LOOP('',(#300,#301,#302,#303,#304));
#75=EDGE_LOOP('',(#305,#306,#307,#308));
#76=EDGE_LOOP('',(#309));
#77=EDGE_LOOP('',(#310));
#78=EDGE_LOOP('',(#311,#312,#313,#314,#315));
#79=EDGE_LOOP('',(#316,#317,#318,#319,#320,#321));
#80=EDGE_LOOP('',(#322,#323,#324,#325,#326));
#81=EDGE_LOOP('',(#327));
#82=EDGE_LOOP('',(#328));
#83=EDGE_LOOP('',(#329,#330,#331,#332,#333));
#84=LINE('',#558,#105);
#85=LINE('',#564,#106);
#86=LINE('',#570,#107);
#87=LINE('',#574,#108);
#88=LINE('',#582,#109);
#89=LINE('',#586,#110);
#90=LINE('',#594,#111);
#91=LINE('',#595,#112);
#92=LINE('',#597,#113);
#93=LINE('',#599,#114);
#94=LINE('',#600,#115);
#95=LINE('',#602,#116);
#96=LINE('',#610,#117);
#97=LINE('',#619,#118);
#98=LINE('',#623,#119);
#99=LINE('',#629,#120);
#100=LINE('',#634,#121);
#101=LINE('',#643,#122);
#102=LINE('',#649,#123);
#103=LINE('',#653,#124);
#104=LINE('',#658,#125);
#105=VECTOR('',#434,2.75);
#106=VECTOR('',#441,2.65);
#107=VECTOR('',#446,10.);
#108=VECTOR('',#449,10.);
#109=VECTOR('',#456,10.);
#110=VECTOR('',#459,10.);
#111=VECTOR('',#470,10.);
#112=VECTOR('',#471,10.);
#113=VECTOR('',#474,10.);
#114=VECTOR('',#477,10.);
#115=VECTOR('',#478,10.);
#116=VECTOR('',#481,10.);
#117=VECTOR('',#492,39.5);
#118=VECTOR('',#503,40.);
#119=VECTOR('',#508,9.5);
#120=VECTOR('',#515,10.);
#121=VECTOR('',#522,10.5);
#122=VECTOR('',#533,34.5);
#123=VECTOR('',#540,35.);
#124=VECTOR('',#545,39.5);
#125=VECTOR('',#552,35.5);
#126=CIRCLE('',#378,2.85);
#127=CIRCLE('',#379,2.65);
#128=CIRCLE('',#380,2.65);
#129=CIRCLE('',#382,2.65);
#130=CIRCLE('',#384,2.65);
#131=CIRCLE('',#386,2.65);
#132=CIRCLE('',#388,2.65);
#133=CIRCLE('',#390,2.65);
#134=CIRCLE('',#392,9.);
#135=CIRCLE('',#401,39.);
#136=CIRCLE('',#402,40.);
#137=CIRCLE('',#403,40.);
#138=CIRCLE('',#405,40.);
#139=CIRCLE('',#406,40.);
#140=CIRCLE('',#409,10.);
#141=CIRCLE('',#410,10.);
#142=CIRCLE('',#412,10.);
#143=CIRCLE('',#414,11.);
#144=CIRCLE('',#416,34.);
#145=CIRCLE('',#418,35.);
#146=CIRCLE('',#419,35.);
#147=CIRCLE('',#421,35.);
#148=CIRCLE('',#422,35.);
#149=CIRCLE('',#424,39.);
#150=CIRCLE('',#426,36.);
#151=VERTEX_POINT('',#555);
#152=VERTEX_POINT('',#557);
#153=VERTEX_POINT('',#559);
#154=VERTEX_POINT('',#563);
#155=VERTEX_POINT('',#565);
#156=VERTEX_POINT('',#567);
#157=VERTEX_POINT('',#569);
#158=VERTEX_POINT('',#571);
#159=VERTEX_POINT('',#573);
#160=VERTEX_POINT('',#575);
#161=VERTEX_POINT('',#577);
#162=VERTEX_POINT('',#579);
#163=VERTEX_POINT('',#581);
#164=VERTEX_POINT('',#583);
#165=VERTEX_POINT('',#585);
#166=VERTEX_POINT('',#587);
#167=VERTEX_POINT('',#591);
#168=VERTEX_POINT('',#607);
#169=VERTEX_POINT('',#609);
#170=VERTEX_POINT('',#611);
#171=VERTEX_POINT('',#615);
#172=VERTEX_POINT('',#616);
#173=VERTEX_POINT('',#622);
#174=VERTEX_POINT('',#624);
#175=VERTEX_POINT('',#628);
#176=VERTEX_POINT('',#632);
#177=VERTEX_POINT('',#636);
#178=VERTEX_POINT('',#639);
#179=VERTEX_POINT('',#640);
#180=VERTEX_POINT('',#645);
#181=VERTEX_POINT('',#646);
#182=VERTEX_POINT('',#651);
#183=VERTEX_POINT('',#655);
#184=EDGE_CURVE('',#151,#151,#126,.T.);
#185=EDGE_CURVE('',#151,#152,#84,.T.);
#186=EDGE_CURVE('',#152,#153,#127,.T.);
#187=EDGE_CURVE('',#153,#152,#128,.T.);
#188=EDGE_CURVE('',#153,#154,#85,.T.);
#189=EDGE_CURVE('',#154,#155,#129,.T.);
#190=EDGE_CURVE('',#156,#155,#29,.F.);
#191=EDGE_CURVE('',#156,#157,#86,.T.);
#192=EDGE_CURVE('',#157,#158,#130,.T.);
#193=EDGE_CURVE('',#158,#159,#87,.T.);
#194=EDGE_CURVE('',#160,#159,#30,.F.);
#195=EDGE_CURVE('',#160,#161,#131,.T.);
#196=EDGE_CURVE('',#162,#161,#31,.F.);
#197=EDGE_CURVE('',#162,#163,#88,.T.);
#198=EDGE_CURVE('',#163,#164,#132,.T.);
#199=EDGE_CURVE('',#164,#165,#89,.T.);
#200=EDGE_CURVE('',#166,#165,#32,.F.);
#201=EDGE_CURVE('',#166,#154,#133,.T.);
#202=EDGE_CURVE('',#167,#167,#134,.T.);
#203=EDGE_CURVE('',#159,#162,#90,.T.);
#204=EDGE_CURVE('',#161,#160,#91,.T.);
#205=EDGE_CURVE('',#163,#158,#92,.T.);
#206=EDGE_CURVE('',#165,#156,#93,.T.);
#207=EDGE_CURVE('',#155,#166,#94,.T.);
#208=EDGE_CURVE('',#157,#164,#95,.T.);
#209=EDGE_CURVE('',#168,#168,#135,.T.);
#210=EDGE_CURVE('',#168,#169,#96,.T.);
#211=EDGE_CURVE('',#169,#170,#136,.T.);
#212=EDGE_CURVE('',#170,#169,#137,.T.);
#213=EDGE_CURVE('',#171,#172,#138,.T.);
#214=EDGE_CURVE('',#172,#171,#139,.T.);
#215=EDGE_CURVE('',#172,#170,#97,.T.);
#216=EDGE_CURVE('',#167,#173,#98,.T.);
#217=EDGE_CURVE('',#173,#174,#140,.T.);
#218=EDGE_CURVE('',#174,#173,#141,.T.);
#219=EDGE_CURVE('',#174,#175,#99,.T.);
#220=EDGE_CURVE('',#175,#175,#142,.T.);
#221=EDGE_CURVE('',#176,#176,#143,.T.);
#222=EDGE_CURVE('',#176,#175,#100,.T.);
#223=EDGE_CURVE('',#177,#177,#144,.T.);
#224=EDGE_CURVE('',#178,#179,#145,.T.);
#225=EDGE_CURVE('',#179,#178,#146,.T.);
#226=EDGE_CURVE('',#178,#177,#101,.T.);
#227=EDGE_CURVE('',#180,#181,#147,.T.);
#228=EDGE_CURVE('',#181,#180,#148,.T.);
#229=EDGE_CURVE('',#181,#179,#102,.T.);
#230=EDGE_CURVE('',#182,#182,#149,.T.);
#231=EDGE_CURVE('',#182,#171,#103,.T.);
#232=EDGE_CURVE('',#183,#183,#150,.T.);
#233=EDGE_CURVE('',#183,#180,#104,.T.);
#234=ORIENTED_EDGE('',*,*,#184,.T.);
#235=ORIENTED_EDGE('',*,*,#185,.T.);
#236=ORIENTED_EDGE('',*,*,#186,.T.);
#237=ORIENTED_EDGE('',*,*,#187,.T.);
#238=ORIENTED_EDGE('',*,*,#185,.F.);
#239=ORIENTED_EDGE('',*,*,#186,.F.);
#240=ORIENTED_EDGE('',*,*,#187,.F.);
#241=ORIENTED_EDGE('',*,*,#188,.T.);
#242=ORIENTED_EDGE('',*,*,#189,.T.);
#243=ORIENTED_EDGE('',*,*,#190,.F.);
#244=ORIENTED_EDGE('',*,*,#191,.T.);
#245=ORIENTED_EDGE('',*,*,#192,.T.);
#246=ORIENTED_EDGE('',*,*,#193,.T.);
#247=ORIENTED_EDGE('',*,*,#194,.F.);
#248=ORIENTED_EDGE('',*,*,#195,.T.);
#249=ORIENTED_EDGE('',*,*,#196,.F.);
#250=ORIENTED_EDGE('',*,*,#197,.T.);
#251=ORIENTED_EDGE('',*,*,#198,.T.);
#252=ORIENTED_EDGE('',*,*,#199,.T.);
#253=ORIENTED_EDGE('',*,*,#200,.F.);
#254=ORIENTED_EDGE('',*,*,#201,.T.);
#255=ORIENTED_EDGE('',*,*,#188,.F.);
#256=ORIENTED_EDGE('',*,*,#202,.F.);
#257=ORIENTED_EDGE('',*,*,#184,.F.);
#258=ORIENTED_EDGE('',*,*,#194,.T.);
#259=ORIENTED_EDGE('',*,*,#203,.T.);
#260=ORIENTED_EDGE('',*,*,#196,.T.);
#261=ORIENTED_EDGE('',*,*,#204,.T.);
#262=ORIENTED_EDGE('',*,*,#203,.F.);
#263=ORIENTED_EDGE('',*,*,#193,.F.);
#264=ORIENTED_EDGE('',*,*,#205,.F.);
#265=ORIENTED_EDGE('',*,*,#197,.F.);
#266=ORIENTED_EDGE('',*,*,#200,.T.);
#267=ORIENTED_EDGE('',*,*,#206,.T.);
#268=ORIENTED_EDGE('',*,*,#190,.T.);
#269=ORIENTED_EDGE('',*,*,#207,.T.);
#270=ORIENTED_EDGE('',*,*,#206,.F.);
#271=ORIENTED_EDGE('',*,*,#199,.F.);
#272=ORIENTED_EDGE('',*,*,#208,.F.);
#273=ORIENTED_EDGE('',*,*,#191,.F.);
#274=ORIENTED_EDGE('',*,*,#204,.F.);
#275=ORIENTED_EDGE('',*,*,#195,.F.);
#276=ORIENTED_EDGE('',*,*,#205,.T.);
#277=ORIENTED_EDGE('',*,*,#192,.F.);
#278=ORIENTED_EDGE('',*,*,#208,.T.);
#279=ORIENTED_EDGE('',*,*,#198,.F.);
#280=ORIENTED_EDGE('',*,*,#207,.F.);
#281=ORIENTED_EDGE('',*,*,#189,.F.);
#282=ORIENTED_EDGE('',*,*,#201,.F.);
#283=ORIENTED_EDGE('',*,*,#209,.T.);
#284=ORIENTED_EDGE('',*,*,#210,.T.);
#285=ORIENTED_EDGE('',*,*,#211,.T.);
#286=ORIENTED_EDGE('',*,*,#212,.T.);
#287=ORIENTED_EDGE('',*,*,#210,.F.);
#288=ORIENTED_EDGE('',*,*,#213,.F.);
#289=ORIENTED_EDGE('',*,*,#214,.F.);
#290=ORIENTED_EDGE('',*,*,#215,.T.);
#291=ORIENTED_EDGE('',*,*,#211,.F.);
#292=ORIENTED_EDGE('',*,*,#212,.F.);
#293=ORIENTED_EDGE('',*,*,#215,.F.);
#294=ORIENTED_EDGE('',*,*,#209,.F.);
#295=ORIENTED_EDGE('',*,*,#202,.T.);
#296=ORIENTED_EDGE('',*,*,#216,.T.);
#297=ORIENTED_EDGE('',*,*,#217,.T.);
#298=ORIENTED_EDGE('',*,*,#218,.T.);
#299=ORIENTED_EDGE('',*,*,#216,.F.);
#300=ORIENTED_EDGE('',*,*,#217,.F.);
#301=ORIENTED_EDGE('',*,*,#218,.F.);
#302=ORIENTED_EDGE('',*,*,#219,.T.);
#303=ORIENTED_EDGE('',*,*,#220,.F.);
#304=ORIENTED_EDGE('',*,*,#219,.F.);
#305=ORIENTED_EDGE('',*,*,#221,.T.);
#306=ORIENTED_EDGE('',*,*,#222,.T.);
#307=ORIENTED_EDGE('',*,*,#220,.T.);
#308=ORIENTED_EDGE('',*,*,#222,.F.);
#309=ORIENTED_EDGE('',*,*,#223,.F.);
#310=ORIENTED_EDGE('',*,*,#221,.F.);
#311=ORIENTED_EDGE('',*,*,#224,.T.);
#312=ORIENTED_EDGE('',*,*,#225,.T.);
#313=ORIENTED_EDGE('',*,*,#226,.T.);
#314=ORIENTED_EDGE('',*,*,#223,.T.);
#315=ORIENTED_EDGE('',*,*,#226,.F.);
#316=ORIENTED_EDGE('',*,*,#227,.F.);
#317=ORIENTED_EDGE('',*,*,#228,.F.);
#318=ORIENTED_EDGE('',*,*,#229,.T.);
#319=ORIENTED_EDGE('',*,*,#224,.F.);
#320=ORIENTED_EDGE('',*,*,#225,.F.);
#321=ORIENTED_EDGE('',*,*,#229,.F.);
#322=ORIENTED_EDGE('',*,*,#230,.T.);
#323=ORIENTED_EDGE('',*,*,#231,.T.);
#324=ORIENTED_EDGE('',*,*,#213,.T.);
#325=ORIENTED_EDGE('',*,*,#214,.T.);
#326=ORIENTED_EDGE('',*,*,#231,.F.);
#327=ORIENTED_EDGE('',*,*,#230,.F.);
#328=ORIENTED_EDGE('',*,*,#232,.F.);
#329=ORIENTED_EDGE('',*,*,#232,.T.);
#330=ORIENTED_EDGE('',*,*,#233,.T.);
#331=ORIENTED_EDGE('',*,*,#227,.T.);
#332=ORIENTED_EDGE('',*,*,#228,.T.);
#333=ORIENTED_EDGE('',*,*,#233,.F.);
#334=CONICAL_SURFACE('',#377,2.75,0.785398163397448);
#335=CONICAL_SURFACE('',#400,39.5,0.785398163397449);
#336=CONICAL_SURFACE('',#408,9.5,0.785398163397448);
#337=CONICAL_SURFACE('',#413,10.5,0.785398163397449);
#338=CONICAL_SURFACE('',#417,34.5,0.785398163397449);
#339=CONICAL_SURFACE('',#423,39.5,0.785398163397449);
#340=CONICAL_SURFACE('',#427,35.5,0.785398163397449);
#341=ADVANCED_FACE('',(#37),#334,.F.);
#342=ADVANCED_FACE('',(#38),#33,.F.);
#343=ADVANCED_FACE('',(#39,#15),#18,.T.);
#344=ADVANCED_FACE('',(#40),#19,.T.);
#345=ADVANCED_FACE('',(#41),#20,.F.);
#346=ADVANCED_FACE('',(#42),#21,.T.);
#347=ADVANCED_FACE('',(#43),#22,.F.);
#348=ADVANCED_FACE('',(#44),#23,.F.);
#349=ADVANCED_FACE('',(#45),#24,.F.);
#350=ADVANCED_FACE('',(#46),#25,.F.);
#351=ADVANCED_FACE('',(#47),#335,.T.);
#352=ADVANCED_FACE('',(#48),#34,.T.);
#353=ADVANCED_FACE('',(#49),#26,.T.);
#354=ADVANCED_FACE('',(#50),#336,.T.);
#355=ADVANCED_FACE('',(#51),#35,.T.);
#356=ADVANCED_FACE('',(#52),#337,.T.);
#357=ADVANCED_FACE('',(#53,#16),#27,.F.);
#358=ADVANCED_FACE('',(#54),#338,.F.);
#359=ADVANCED_FACE('',(#55),#36,.F.);
#360=ADVANCED_FACE('',(#56),#339,.T.);
#361=ADVANCED_FACE('',(#57,#17),#28,.T.);
#362=ADVANCED_FACE('',(#58),#340,.F.);
#363=CLOSED_SHELL('',(#341,#342,#343,#344,#345,#346,#347,#348,#349,#350,
#351,#352,#353,#354,#355,#356,#357,#358,#359,#360,#361,#362));
#364=DERIVED_UNIT_ELEMENT(#366,1.);
#365=DERIVED_UNIT_ELEMENT(#664,-3.);
#366=(
MASS_UNIT()
NAMED_UNIT(*)
SI_UNIT(.KILO.,.GRAM.)
);
#367=DERIVED_UNIT((#364,#365));
#368=MEASURE_REPRESENTATION_ITEM('density measure',
POSITIVE_RATIO_MEASURE(7850.),#367);
#369=PROPERTY_DEFINITION_REPRESENTATION(#374,#371);
#370=PROPERTY_DEFINITION_REPRESENTATION(#375,#372);
#371=REPRESENTATION('material name',(#373),#661);
#372=REPRESENTATION('density',(#368),#661);
#373=DESCRIPTIVE_REPRESENTATION_ITEM('Stahl','Stahl');
#374=PROPERTY_DEFINITION('material property','material name',#671);
#375=PROPERTY_DEFINITION('material property','density of part',#671);
#376=AXIS2_PLACEMENT_3D('placement',#553,#428,#429);
#377=AXIS2_PLACEMENT_3D('',#554,#430,#431);
#378=AXIS2_PLACEMENT_3D('',#556,#432,#433);
#379=AXIS2_PLACEMENT_3D('',#560,#435,#436);
#380=AXIS2_PLACEMENT_3D('',#561,#437,#438);
#381=AXIS2_PLACEMENT_3D('',#562,#439,#440);
#382=AXIS2_PLACEMENT_3D('',#566,#442,#443);
#383=AXIS2_PLACEMENT_3D('',#568,#444,#445);
#384=AXIS2_PLACEMENT_3D('',#572,#447,#448);
#385=AXIS2_PLACEMENT_3D('',#576,#450,#451);
#386=AXIS2_PLACEMENT_3D('',#578,#452,#453);
#387=AXIS2_PLACEMENT_3D('',#580,#454,#455);
#388=AXIS2_PLACEMENT_3D('',#584,#457,#458);
#389=AXIS2_PLACEMENT_3D('',#588,#460,#461);
#390=AXIS2_PLACEMENT_3D('',#589,#462,#463);
#391=AXIS2_PLACEMENT_3D('',#590,#464,#465);
#392=AXIS2_PLACEMENT_3D('',#592,#466,#467);
#393=AXIS2_PLACEMENT_3D('',#593,#468,#469);
#394=AXIS2_PLACEMENT_3D('',#596,#472,#473);
#395=AXIS2_PLACEMENT_3D('',#598,#475,#476);
#396=AXIS2_PLACEMENT_3D('',#601,#479,#480);
#397=AXIS2_PLACEMENT_3D('',#603,#482,#483);
#398=AXIS2_PLACEMENT_3D('',#604,#484,#485);
#399=AXIS2_PLACEMENT_3D('',#605,#486,#487);
#400=AXIS2_PLACEMENT_3D('',#606,#488,#489);
#401=AXIS2_PLACEMENT_3D('',#608,#490,#491);
#402=AXIS2_PLACEMENT_3D('',#612,#493,#494);
#403=AXIS2_PLACEMENT_3D('',#613,#495,#496);
#404=AXIS2_PLACEMENT_3D('',#614,#497,#498);
#405=AXIS2_PLACEMENT_3D('',#617,#499,#500);
#406=AXIS2_PLACEMENT_3D('',#618,#501,#502);
#407=AXIS2_PLACEMENT_3D('',#620,#504,#505);
#408=AXIS2_PLACEMENT_3D('',#621,#506,#507);
#409=AXIS2_PLACEMENT_3D('',#625,#509,#510);
#410=AXIS2_PLACEMENT_3D('',#626,#511,#512);
#411=AXIS2_PLACEMENT_3D('',#627,#513,#514);
#412=AXIS2_PLACEMENT_3D('',#630,#516,#517);
#413=AXIS2_PLACEMENT_3D('',#631,#518,#519);
#414=AXIS2_PLACEMENT_3D('',#633,#520,#521);
#415=AXIS2_PLACEMENT_3D('',#635,#523,#524);
#416=AXIS2_PLACEMENT_3D('',#637,#525,#526);
#417=AXIS2_PLACEMENT_3D('',#638,#527,#528);
#418=AXIS2_PLACEMENT_3D('',#641,#529,#530);
#419=AXIS2_PLACEMENT_3D('',#642,#531,#532);
#420=AXIS2_PLACEMENT_3D('',#644,#534,#535);
#421=AXIS2_PLACEMENT_3D('',#647,#536,#537);
#422=AXIS2_PLACEMENT_3D('',#648,#538,#539);
#423=AXIS2_PLACEMENT_3D('',#650,#541,#542);
#424=AXIS2_PLACEMENT_3D('',#652,#543,#544);
#425=AXIS2_PLACEMENT_3D('',#654,#546,#547);
#426=AXIS2_PLACEMENT_3D('',#656,#548,#549);
#427=AXIS2_PLACEMENT_3D('',#657,#550,#551);
#428=DIRECTION('axis',(0.,0.,1.));
#429=DIRECTION('refdir',(1.,0.,0.));
#430=DIRECTION('center_axis',(0.,0.,1.));
#431=DIRECTION('ref_axis',(-1.,0.,0.));
#432=DIRECTION('center_axis',(0.,0.,1.));
#433=DIRECTION('ref_axis',(-1.,0.,0.));
#434=DIRECTION('',(-0.707106781186548,-8.65956056235493E-17,-0.707106781186548));
#435=DIRECTION('center_axis',(0.,0.,-1.));
#436=DIRECTION('ref_axis',(-1.,0.,0.));
#437=DIRECTION('center_axis',(0.,0.,-1.));
#438=DIRECTION('ref_axis',(-1.,0.,0.));
#439=DIRECTION('center_axis',(0.,0.,-1.));
#440=DIRECTION('ref_axis',(1.,0.,0.));
#441=DIRECTION('',(0.,0.,-1.));
#442=DIRECTION('center_axis',(0.,0.,-1.));
#443=DIRECTION('ref_axis',(1.,0.,0.));
#444=DIRECTION('center_axis',(-0.707106781186548,0.,-0.707106781186548));
#445=DIRECTION('ref_axis',(0.707106781186547,0.,-0.707106781186547));
#446=DIRECTION('',(0.,0.,-1.));
#447=DIRECTION('center_axis',(0.,0.,-1.));
#448=DIRECTION('ref_axis',(1.,0.,0.));
#449=DIRECTION('',(0.,0.,1.));
#450=DIRECTION('center_axis',(0.707106781186548,0.,-0.707106781186548));
#451=DIRECTION('ref_axis',(0.707106781186547,0.,0.707106781186547));
#452=DIRECTION('center_axis',(0.,0.,-1.));
#453=DIRECTION('ref_axis',(1.,0.,0.));
#454=DIRECTION('center_axis',(0.707106781186548,0.,-0.707106781186548));
#455=DIRECTION('ref_axis',(0.707106781186547,0.,0.707106781186547));
#456=DIRECTION('',(0.,0.,-1.));
#457=DIRECTION('center_axis',(0.,0.,-1.));
#458=DIRECTION('ref_axis',(1.,0.,0.));
#459=DIRECTION('',(0.,0.,1.));
#460=DIRECTION('center_axis',(-0.707106781186548,0.,-0.707106781186548));
#461=DIRECTION('ref_axis',(0.707106781186547,0.,-0.707106781186547));
#462=DIRECTION('center_axis',(0.,0.,-1.));
#463=DIRECTION('ref_axis',(1.,0.,0.));
#464=DIRECTION('center_axis',(0.,0.,1.));
#465=DIRECTION('ref_axis',(1.,0.,0.));
#466=DIRECTION('center_axis',(0.,0.,-1.));
#467=DIRECTION('ref_axis',(-1.,0.,0.));
#468=DIRECTION('center_axis',(-0.707106781186548,0.,0.707106781186548));
#469=DIRECTION('ref_axis',(0.707106781186548,0.,0.707106781186548));
#470=DIRECTION('',(0.,-1.,0.));
#471=DIRECTION('',(0.,1.,0.));
#472=DIRECTION('center_axis',(1.,0.,0.));
#473=DIRECTION('ref_axis',(0.,0.,-1.));
#474=DIRECTION('',(0.,1.,0.));
#475=DIRECTION('center_axis',(0.707106781186548,0.,0.707106781186548));
#476=DIRECTION('ref_axis',(0.707106781186548,0.,-0.707106781186548));
#477=DIRECTION('',(0.,1.,0.));
#478=DIRECTION('',(0.,-1.,0.));
#479=DIRECTION('center_axis',(-1.,0.,0.));
#480=DIRECTION('ref_axis',(0.,0.,1.));
#481=DIRECTION('',(0.,-1.,0.));
#482=DIRECTION('center_axis',(0.,0.,-1.));
#483=DIRECTION('ref_axis',(0.,1.,0.));
#484=DIRECTION('center_axis',(0.,0.,-1.));
#485=DIRECTION('ref_axis',(1.,0.,0.));
#486=DIRECTION('center_axis',(0.,0.,-1.));
#487=DIRECTION('ref_axis',(0.,1.,0.));
#488=DIRECTION('center_axis',(0.,0.,1.));
#489=DIRECTION('ref_axis',(-1.,0.,0.));
#490=DIRECTION('center_axis',(0.,0.,1.));
#491=DIRECTION('ref_axis',(-1.,0.,0.));
#492=DIRECTION('',(0.707106781186548,-8.65956056235494E-17,0.707106781186547));
#493=DIRECTION('center_axis',(0.,0.,-1.));
#494=DIRECTION('ref_axis',(-1.,0.,0.));
#495=DIRECTION('center_axis',(0.,0.,-1.));
#496=DIRECTION('ref_axis',(-1.,0.,0.));
#497=DIRECTION('center_axis',(0.,0.,1.));
#498=DIRECTION('ref_axis',(1.,0.,0.));
#499=DIRECTION('center_axis',(0.,0.,1.));
#500=DIRECTION('ref_axis',(-1.,0.,0.));
#501=DIRECTION('center_axis',(0.,0.,1.));
#502=DIRECTION('ref_axis',(-1.,0.,0.));
#503=DIRECTION('',(0.,0.,-1.));
#504=DIRECTION('center_axis',(0.,0.,-1.));
#505=DIRECTION('ref_axis',(-1.,0.,0.));
#506=DIRECTION('center_axis',(0.,0.,-1.));
#507=DIRECTION('ref_axis',(-1.,0.,0.));
#508=DIRECTION('',(0.707106781186548,8.65956056235493E-17,-0.707106781186548));
#509=DIRECTION('center_axis',(0.,0.,1.));
#510=DIRECTION('ref_axis',(-1.,0.,0.));
#511=DIRECTION('center_axis',(0.,0.,1.));
#512=DIRECTION('ref_axis',(-1.,0.,0.));
#513=DIRECTION('center_axis',(0.,0.,1.));
#514=DIRECTION('ref_axis',(1.,0.,0.));
#515=DIRECTION('',(0.,0.,-1.));
#516=DIRECTION('center_axis',(0.,0.,-1.));
#517=DIRECTION('ref_axis',(1.,0.,0.));
#518=DIRECTION('center_axis',(0.,0.,-1.));
#519=DIRECTION('ref_axis',(1.,0.,0.));
#520=DIRECTION('center_axis',(0.,0.,1.));
#521=DIRECTION('ref_axis',(1.,0.,0.));
#522=DIRECTION('',(0.707106781186548,-8.65956056235494E-17,0.707106781186547));
#523=DIRECTION('center_axis',(0.,0.,-1.));
#524=DIRECTION('ref_axis',(1.,0.,0.));
#525=DIRECTION('center_axis',(0.,0.,-1.));
#526=DIRECTION('ref_axis',(-1.,0.,0.));
#527=DIRECTION('center_axis',(0.,0.,1.));
#528=DIRECTION('ref_axis',(-1.,0.,0.));
#529=DIRECTION('center_axis',(0.,0.,1.));
#530=DIRECTION('ref_axis',(-1.,0.,0.));
#531=DIRECTION('center_axis',(0.,0.,1.));
#532=DIRECTION('ref_axis',(-1.,0.,0.));
#533=DIRECTION('',(-0.707106781186548,-8.65956056235494E-17,-0.707106781186547));
#534=DIRECTION('center_axis',(0.,0.,-1.));
#535=DIRECTION('ref_axis',(1.,0.,0.));
#536=DIRECTION('center_axis',(0.,0.,-1.));
#537=DIRECTION('ref_axis',(-1.,0.,0.));
#538=DIRECTION('center_axis',(0.,0.,-1.));
#539=DIRECTION('ref_axis',(-1.,0.,0.));
#540=DIRECTION('',(0.,0.,-1.));
#541=DIRECTION('center_axis',(0.,0.,-1.));
#542=DIRECTION('ref_axis',(-1.,0.,0.));
#543=DIRECTION('center_axis',(0.,0.,-1.));
#544=DIRECTION('ref_axis',(-1.,0.,0.));
#545=DIRECTION('',(0.707106781186548,8.65956056235494E-17,-0.707106781186547));
#546=DIRECTION('center_axis',(0.,0.,1.));
#547=DIRECTION('ref_axis',(1.,0.,0.));
#548=DIRECTION('center_axis',(0.,0.,1.));
#549=DIRECTION('ref_axis',(-1.,0.,0.));
#550=DIRECTION('center_axis',(0.,0.,1.));
#551=DIRECTION('ref_axis',(-1.,0.,0.));
#552=DIRECTION('',(-0.707106781186548,-8.65956056235494E-17,-0.707106781186547));
#553=CARTESIAN_POINT('',(0.,0.,0.));
#554=CARTESIAN_POINT('Origin',(0.,0.,9.9));
#555=CARTESIAN_POINT('',(2.85,3.49024337756996E-16,10.));
#556=CARTESIAN_POINT('Origin',(0.,0.,10.));
#557=CARTESIAN_POINT('',(2.65,-3.24531401774049E-16,9.8));
#558=CARTESIAN_POINT('',(2.75,3.36777869765522E-16,9.9));
#559=CARTESIAN_POINT('',(-2.65,3.24531401774049E-16,9.8));
#560=CARTESIAN_POINT('Origin',(0.,0.,9.8));
#561=CARTESIAN_POINT('Origin',(0.,0.,9.8));
#562=CARTESIAN_POINT('Origin',(0.,0.,6.5));
#563=CARTESIAN_POINT('',(-2.65,3.24531401774049E-16,9.));
#564=CARTESIAN_POINT('',(-2.65,3.24531401774049E-16,6.5));
#565=CARTESIAN_POINT('',(-1.80000002980465,1.94486500629305,9.));
#566=CARTESIAN_POINT('Origin',(0.,0.,9.));
#567=CARTESIAN_POINT('',(-1.60000002980465,2.11246299485343,8.8));
#568=CARTESIAN_POINT('Origin',(0.,0.,7.19999997019536));
#569=CARTESIAN_POINT('',(-1.60000002980463,2.11246299485349,3.));
#570=CARTESIAN_POINT('',(-1.60000002980465,2.11246299485343,6.5));
#571=CARTESIAN_POINT('',(1.59999994039536,2.1124630625729,3.));
#572=CARTESIAN_POINT('Origin',(0.,0.,3.));
#573=CARTESIAN_POINT('',(1.59999994039536,2.1124630625729,8.8));
#574=CARTESIAN_POINT('',(1.59999994039536,2.1124630625729,6.5));
#575=CARTESIAN_POINT('',(1.79999994039536,1.94486508904261,9.));
#576=CARTESIAN_POINT('Origin',(0.,0.,7.20000005960465));
#577=CARTESIAN_POINT('',(1.79999994039536,-1.94486508904261,9.));
#578=CARTESIAN_POINT('Origin',(0.,0.,9.));
#579=CARTESIAN_POINT('',(1.59999994039536,-2.1124630625729,8.8));
#580=CARTESIAN_POINT('Origin',(0.,0.,7.20000005960465));
#581=CARTESIAN_POINT('',(1.59999994039536,-2.1124630625729,3.));
#582=CARTESIAN_POINT('',(1.59999994039536,-2.1124630625729,6.5));
#583=CARTESIAN_POINT('',(-1.60000002980463,-2.11246299485349,3.));
#584=CARTESIAN_POINT('Origin',(0.,0.,3.));
#585=CARTESIAN_POINT('',(-1.60000002980465,-2.11246299485343,8.8));
#586=CARTESIAN_POINT('',(-1.60000002980465,-2.11246299485343,6.5));
#587=CARTESIAN_POINT('',(-1.80000002980465,-1.94486500629305,9.));
#588=CARTESIAN_POINT('Origin',(0.,0.,7.19999997019536));
#589=CARTESIAN_POINT('Origin',(0.,0.,9.));
#590=CARTESIAN_POINT('Origin',(0.,0.,10.));
#591=CARTESIAN_POINT('',(9.,-1.10218211923262E-15,10.));
#592=CARTESIAN_POINT('Origin',(0.,0.,10.));
#593=CARTESIAN_POINT('Origin',(1.69999994039536,3.48332473976143E-12,8.9));
#594=CARTESIAN_POINT('',(1.59999994039536,3.48332473976143E-12,8.8));
#595=CARTESIAN_POINT('',(1.79999994039536,3.48332473976143E-12,9.));
#596=CARTESIAN_POINT('Origin',(1.59999994039536,3.48332473976143E-12,6.));
#597=CARTESIAN_POINT('',(1.59999994039536,1.74166236988071E-12,3.));
#598=CARTESIAN_POINT('Origin',(-1.70000002980465,3.48332473976143E-12,8.9));
#599=CARTESIAN_POINT('',(-1.60000002980465,3.48332473976143E-12,8.8));
#600=CARTESIAN_POINT('',(-1.80000002980465,3.48332473976143E-12,9.));
#601=CARTESIAN_POINT('Origin',(-1.60000002980465,3.48332473976143E-12,6.));
#602=CARTESIAN_POINT('',(-1.60000002980465,1.74166236988071E-12,3.));
#603=CARTESIAN_POINT('Origin',(2.49999995529536,3.48332473976143E-12,9.));
#604=CARTESIAN_POINT('Origin',(0.,0.,3.));
#605=CARTESIAN_POINT('Origin',(-2.50000004470464,3.48332473976143E-12,9.));
#606=CARTESIAN_POINT('Origin',(0.,0.,0.5));
#607=CARTESIAN_POINT('',(39.,4.77612251667468E-15,0.));
#608=CARTESIAN_POINT('Origin',(0.,0.,0.));
#609=CARTESIAN_POINT('',(40.,-4.89858719658941E-15,1.));
#610=CARTESIAN_POINT('',(39.5,-4.83735485663204E-15,0.5));
#611=CARTESIAN_POINT('',(-40.,-4.89858719658941E-15,1.));
#612=CARTESIAN_POINT('Origin',(0.,0.,1.));
#613=CARTESIAN_POINT('Origin',(0.,0.,1.));
#614=CARTESIAN_POINT('Origin',(0.,0.,5.));
#615=CARTESIAN_POINT('',(40.,4.89858719658941E-15,9.));
#616=CARTESIAN_POINT('',(-40.,-4.89858719658941E-15,9.));
#617=CARTESIAN_POINT('Origin',(0.,0.,9.));
#618=CARTESIAN_POINT('Origin',(0.,0.,9.));
#619=CARTESIAN_POINT('',(-40.,-4.89858719658941E-15,5.));
#620=CARTESIAN_POINT('Origin',(0.,0.,0.));
#621=CARTESIAN_POINT('Origin',(0.,0.,9.5));
#622=CARTESIAN_POINT('',(10.,1.22464679914735E-15,9.));
#623=CARTESIAN_POINT('',(9.5,1.16341445918999E-15,9.5));
#624=CARTESIAN_POINT('',(-10.,-1.22464679914735E-15,9.));
#625=CARTESIAN_POINT('Origin',(0.,0.,9.));
#626=CARTESIAN_POINT('Origin',(0.,0.,9.));
#627=CARTESIAN_POINT('Origin',(0.,0.,5.));
#628=CARTESIAN_POINT('',(-10.,1.22464679914735E-15,6.));
#629=CARTESIAN_POINT('',(-10.,-1.22464679914735E-15,5.));
#630=CARTESIAN_POINT('Origin',(0.,0.,6.));
#631=CARTESIAN_POINT('Origin',(0.,0.,5.5));
#632=CARTESIAN_POINT('',(-11.,-1.34711147906209E-15,5.));
#633=CARTESIAN_POINT('Origin',(0.,0.,5.));
#634=CARTESIAN_POINT('',(-10.5,1.28587913910472E-15,5.5));
#635=CARTESIAN_POINT('Origin',(0.,0.,5.));
#636=CARTESIAN_POINT('',(34.,-4.163799117101E-15,5.));
#637=CARTESIAN_POINT('Origin',(0.,0.,5.));
#638=CARTESIAN_POINT('Origin',(0.,0.,5.5));
#639=CARTESIAN_POINT('',(35.,4.28626379701574E-15,6.));
#640=CARTESIAN_POINT('',(-35.,4.28626379701574E-15,6.));
#641=CARTESIAN_POINT('Origin',(0.,0.,6.));
#642=CARTESIAN_POINT('Origin',(0.,0.,6.));
#643=CARTESIAN_POINT('',(34.5,4.22503145705837E-15,5.5));
#644=CARTESIAN_POINT('Origin',(0.,0.,7.5));
#645=CARTESIAN_POINT('',(35.,-4.28626379701574E-15,9.));
#646=CARTESIAN_POINT('',(-35.,4.28626379701574E-15,9.));
#647=CARTESIAN_POINT('Origin',(0.,0.,9.));
#648=CARTESIAN_POINT('Origin',(0.,0.,9.));
#649=CARTESIAN_POINT('',(-35.,4.28626379701574E-15,7.5));
#650=CARTESIAN_POINT('Origin',(0.,0.,9.5));
#651=CARTESIAN_POINT('',(39.,-4.77612251667468E-15,10.));
#652=CARTESIAN_POINT('Origin',(0.,0.,10.));
#653=CARTESIAN_POINT('',(39.5,4.83735485663204E-15,9.5));
#654=CARTESIAN_POINT('Origin',(0.,0.,10.));
#655=CARTESIAN_POINT('',(36.,4.40872847693047E-15,10.));
#656=CARTESIAN_POINT('Origin',(0.,0.,10.));
#657=CARTESIAN_POINT('Origin',(0.,0.,9.5));
#658=CARTESIAN_POINT('',(35.5,4.3474961369731E-15,9.5));
#659=UNCERTAINTY_MEASURE_WITH_UNIT(LENGTH_MEASURE(0.01),#663,
'DISTANCE_ACCURACY_VALUE',
'Maximum model space distance between geometric entities at asserted c
onnectivities');
#660=UNCERTAINTY_MEASURE_WITH_UNIT(LENGTH_MEASURE(0.01),#663,
'DISTANCE_ACCURACY_VALUE',
'Maximum model space distance between geometric entities at asserted c
onnectivities');
#661=(
GEOMETRIC_REPRESENTATION_CONTEXT(3)
GLOBAL_UNCERTAINTY_ASSIGNED_CONTEXT((#659))
GLOBAL_UNIT_ASSIGNED_CONTEXT((#663,#665,#666))
REPRESENTATION_CONTEXT('','3D')
);
#662=(
GEOMETRIC_REPRESENTATION_CONTEXT(3)
GLOBAL_UNCERTAINTY_ASSIGNED_CONTEXT((#660))
GLOBAL_UNIT_ASSIGNED_CONTEXT((#663,#665,#666))
REPRESENTATION_CONTEXT('','3D')
);
#663=(
LENGTH_UNIT()
NAMED_UNIT(*)
SI_UNIT(.MILLI.,.METRE.)
);
#664=(
LENGTH_UNIT()
NAMED_UNIT(*)
SI_UNIT($,.METRE.)
);
#665=(
NAMED_UNIT(*)
PLANE_ANGLE_UNIT()
SI_UNIT($,.RADIAN.)
);
#666=(
NAMED_UNIT(*)
SI_UNIT($,.STERADIAN.)
SOLID_ANGLE_UNIT()
);
#667=SHAPE_DEFINITION_REPRESENTATION(#668,#669);
#668=PRODUCT_DEFINITION_SHAPE('',$,#671);
#669=SHAPE_REPRESENTATION('',(#376),#661);
#670=PRODUCT_DEFINITION_CONTEXT('part definition',#675,'design');
#671=PRODUCT_DEFINITION('Lasersky Teller','Lasersky Teller v2',#672,#670);
#672=PRODUCT_DEFINITION_FORMATION('',$,#677);
#673=PRODUCT_RELATED_PRODUCT_CATEGORY('Lasersky Teller v2',
'Lasersky Teller v2',(#677));
#674=APPLICATION_PROTOCOL_DEFINITION('international standard',
'automotive_design',2009,#675);
#675=APPLICATION_CONTEXT(
'Core Data for Automotive Mechanical Design Process');
#676=PRODUCT_CONTEXT('part definition',#675,'mechanical');
#677=PRODUCT('Lasersky Teller','Lasersky Teller v2',$,(#676));
#678=PRESENTATION_STYLE_ASSIGNMENT((#679));
#679=SURFACE_STYLE_USAGE(.BOTH.,#680);
#680=SURFACE_SIDE_STYLE('',(#681));
#681=SURFACE_STYLE_FILL_AREA(#682);
#682=FILL_AREA_STYLE('Stahl - satiniert',(#683));
#683=FILL_AREA_STYLE_COLOUR('Stahl - satiniert',#684);
#684=COLOUR_RGB('Stahl - satiniert',0.627450980392157,0.627450980392157,
0.627450980392157);
ENDSEC;
END-ISO-10303-21;
